Jump to content
Jambands.ca

Post a Tab/Chord


Schwa.
 Share

Recommended Posts

Just want to beef up the collection.

Song: '39

Band: Queen

(pickup chord) D Em

In the year of '39.... Assembled here the volunteers

C~ G D Em Em7

In the days when lands were few Here the ship sailed out into the

C~ D(add G) Dmaj G

Blue and sunny morn Sweetest sight ever seen.

G D B7

And night followed day, and the story tellers say

Em Am

That the score brave souls inside

G D

For many a lonely day sailed across the milky seas

C Em C D C (G) D------

Ne'er looked back, never feared, never cried.

G C G

Don't you hear my call, though you're many years away,

G D

Don't you hear me calling you

G F#/G Em D C B/G Am

Write your letters in the sand for the day I take your hand

Em D G

In the land that our grandchildren knew.

D Em

In the year of '39 came a ship in from the blue

C~ G D

The Volunteers came home that day

Em Em7 C

And they bring good news of a world so newly born

D(add G) Dmaj G

Though their so heavily weigh

G D B7

For the earth is old and grey, little darlin' we'll away

Em Am

But my love this cannot be

G D

For so many years have gone though I'm older but a year

C Em C D C (G) D------

Your mother's eyes from your eyes cry to me.

G C G

Don't you hear my call, though you're many years away,

G D

Don't you hear me calling you

G F#/G Em D C B/G Am

Write your letters in the sand for the day I take your hand

Em D G

In the land that our grandchildren knew.

G C G

Don't you hear my call though you're many years away

G D

Don't you hear me calling you

G F#/G Em D C B/G Am

All the letters in the sand cannot heal me like your hand

For my life

Still ahead

Pity Me.

Link to comment
Share on other sites

  • Replies 52
  • Created
  • Last Reply

Top Posters In This Topic

Rockaway Beach by The Ramones

1-2-3-4 [ D ]

Verse 1

A: Chewing out a rhythm on my bubble gum

The sun is out and I want some.

D: It's not hard, not far to reach

E: We can hitch a ride to Rockaway Beach.

Verse 2

A: Up on the roof, out on the street

Down in the playground the hot concrete

D: Bus ride is too slow

E: They blast out the disco on the radio

Chorus

A: Rock, Rock Rockaway Beach

D: Rock, Rock Rockaway Beach

A: Rock, Rock Rockaway Beach

E: We can hitch a ride to Rockaway Beach (2x)

[ GD FC (2x) ]

F#: It's not hard, not far to reach

A: We can hitch a ride to Rockaway Beach.

F#: It's not hard, not far to reach

D > E: We can hitch a ride to Rockaway Beach.

repeat Verse 1

repeat Chorus

[ GD FC (2x) D A ]

repeat Chorus x 2

[ D A ]

Link to comment
Share on other sites

Cheers Schwa. , I've had that folder sitting around on my computer for awhile now, but forgot about until I saw this thread, so thank you for reminding me.

Also, phunkyb I haven't forgot I owe you some DVDs and CDs, I still haven't gotten my computer fixed so I can't burn DVDs yet, but I do have copies of the CDs for you.

Link to comment
Share on other sites

Fuck Her Gently Chords by Tenacious D,

D F#m

You don't always have to fuck her hard, In

Em A

Fact sometimes that's not right ... to do.

D F#m

Sometimes you gotta make some love

Em A

And fuckin give her some smooches too

Bm G

Sometimes you got to squeeze

Bm G

Sometimes you got to say please

D A

Sometimes you got to say hey:

D F#m

I'm gonna fuck you .... softly

Em A

I'm gonna screw you gently

D F#m

I'm gonna hump you.... sweetly

Em A

I'm gonna ball you ... discretely---

Bm G

And then you say, Hey I brought you flowers

D A

And then you say, Wait a minute sally!

B G Em

I think I got something in my teeth could you get it out for me?

A

That's fuckin' Teamwork!

D F#m

What's your favorite posish?

Em A D

That's cool with me it's not my favorite but I'll do it for you

F#m

What's your favorite dish?

Em A

I'm not gonna cook it but I'll order it from Zanzibar!

Bm G

And then I'm gonna love you completely

D A

And then I'll fuckin' fuck you discretely

Bm G

And then I'll fuckin bone you completely

D

But then...

Em A C G D

I'm gonna fuck ---- you ----- haaaaaaaaaard-------

Bb7 C D

haaaaaaaaaaaaaaaaaaaaaaaaaard!!!!

Link to comment
Share on other sites

Complete Control Tablature

(Strummer/Jones)

E

THEY SAID RELEASE "REMOTE CONTROL"

B E

BUT WE DIDN’T WANT IT ON THE LABEL

E

THEY SAID, "FLY TO AMSTERDAM"

B E

THE PEOPLE LAUGHED BUT THE PRESS WENT MAD

C#m A B E

OOH OOH OOH SOMEONE'S REALLY SMART

C#m A B

OOH OOH OOH COMPLETE CONTROL, THAT'S A LAUGH

ON THE LAST TOUR MY MATES COULDN'T GET IN

I’D OPEN UP THE BACK DOOR BUT THEY'D GET RUN

OUT AGAIN

AT EVERY HOTEL WE WAS MET BY THE LAW

COME FOR THE PARTY – COME TO MAKE SURE!

OOH OOH OOH HAVE WE DONE SOMETHING WRONG?

OOH OOH OOH COMPLETE CONTROL, EVEN OVER THIS SONG

THEY SAID WE’D BE ARTISTICALLY FREE

WHEN WE SIGNED THAT BIT OF PAPER

THEY MEANT LET'S RAKE A LOTSA MON-EE

AN' WORRY ABOUT IT LATER

OOH OOH OOH I’LL NEVER UNDERSTAND

OOH OOH OOH COMPLETE CONTROL – LEMME SEE YOUR

OTHER HAND!

ALL OVER THE NEWS SPREAD FAST

THEY’RE DIRTY, THEY'RE FILTHY

THEY AIN'T GONNA LAST

THIS IS JOE PUBLIC SPEAKING

I'M CONTROLLED IN THE BODY, CONTROLLED IN THE

MIND

Bsus4 A C#m

TOTAL

D A E

C-O-N CONTROL – THAT MEANS YOU!

Link to comment
Share on other sites

Freebird

G D Em

If I leave here tomorrow,

F C D

Would you still remember me

G D Em

For I must be travelin on now

F C D

Cause theres too many places I've got to see

G D Em

If I stay her with you girl

F C D

Well things just couldnt be the same

G D Em

Cause I'm as free as a bird now

F C D

And this bird you'll never chain

F C D

And this bird you cannot chain

F C D

And this bird you cannot chain

F C D

Lord knows I cant change

Link to comment
Share on other sites

NO problem, A. Man. I'm gonna print em off at work and binder them like the entire beatles collection :) :) :)

SEVEN BRIDGES ROAD: as performed by The Eagles

INTRO (play 1000 times)

D

e-----------------------------------------------------------------

B-----3-------3-----3-------3-----3-------3-----3-------3---------

G--------0h2-----------0h2-----------0h2-----------0h2------------

D--0-------------0-------------0-------------0--------------------

A-----------------------------------------------------------------

E-----------------------------------------------------------------

VERSES:

D C

e-----------------------------------------------------------------

B-----3-------3-----3-------3-------------------------------------

G--------0h2-----------0h2--------0-------0-----0-------0---------

D--0-------------0-------------------0h2-----------0h2------------

A------------------------------3-------------3--------------------

E-----------------------------------------------------------------

There are stars in the

Southward as you

G D

e-----------------------------------------------------------------

B---------------------------------3-------3-----3-------3---------

G------------------------------------0h2-----------0h2------------

D-----0-------0-----0-------0--0-------------0--------------------

A--------0h2-----------0h2----------------------------------------

E--3-------------3------------------------------------------------

sou--------------thern sky

go------------------------o

FANCY RUNS (nothing more than standard bass runs in C and G)

D (4X)

e-----------------------------------------------------------------

B-----3-------3-----3-------3-----3-------3-----3-------3---------

G--------0h2-----------0h2-----------0h2-----------0h2------------

D--0-------------0-------------0-------------0--------------------

A-----------------------------------------------------------------

E-----------------------------------------------------------------

C G D

e-----------------------------------------------------------------

B---------------------------------------------------3-------3-----

G---------------0--0h2p0-------------------------------0h2--------

D-----------0h2----------2-----------0-0h2p0-----0----------------

A--0-2-3--3----------------------0h2---------2--------------------

E----------------------------3-3----------------------------------

BRIDGE

C riff 4X G riff 4X

Sometimes there's a part of me

C riff D

(that) wants to turn from here and go.

C G

Running like a child from these warm stars,

D C G

Down the seven bridges road

REST OF VERSES

There are stars in the southern sky,

Southward as you go.

There is moonlight and moss in the trees,

Down the seven bridges road.

There are stars in the southern sky.

And if ever you decide you should go.

There is a taste of thyme sweet and honey.

Down the seven bridges road.

Link to comment
Share on other sites

This song is just supertastic. Since this site will probably mess with the layout of chords here is the link: http://www.911tabs.com/link/?2606595

Meadowlake Street

Ryan Adams

Intro A

A Asus A

There’s something about you that reminds me of all those times

D A E

When I wasn’t sorry, when I wasn’t blue the cherry moon it shone down on us

F#m A E F#m

Under the stars shining down everyone for you

A G

If I could count them all I would circle the moon

D

And count ‘em back to nothing till I got to you

Bm A G

Something in you dies when it’s over

Bm A G

Everybody cries sometimes

Bm A G

If loving you’s a dream that’s not worth having

A Asus2 A Asus2

Then why do I dream of you

A Asus A

I used to be the house that you lived in down on Meadowlake Street

D A E

When you moved they cut down the maple tree I carved your name into

F#m A E

The tree became a boat, I christened it your name

F#m A

And when the water turned to salt from your tears

G

It hit the bottom of the ocean where I go

Dsus2

When I hear your name and I sink like a stone

Bm A G

Something in you dies when it’s over

Bm A G

Everybody cries sometimes

Bm A G

If loving you’s a dream that’s not worth having

A/D Asus2/D A/D Asus2/D

Then why do I dream of you

A Asus

I feel like a dream that’s not worth having

A Asus

Like a nervous joke ain’t nobody laughing

Dsus2

Like somebody with nothing ‘cause they don’t know what they’re wanting

Tiny like the sand in the cracks of the driftwood

A Asus

Washed up on the shore of an ocean of you

A Asus

Boats out on the horizon

Dsus2

Made of the maple tree where I used to lie down

On Meadowlake street counting the stars

A Asus A Asus Dsus2 A Asus A Asus Dsus2

You and I you and I... you and I you and I..

Bm A G

Something in you dies when it’s over

Bm A G

Everybody cries sometimes

Bm A G

If loving you’s a dream that’s not worth having

A/D Asus2/D A/D Asus2/D A/D Asus2/D A/D Asus2/D

Then why do I dream of you, why do I dream of you

A/D Asus2/D A/D Asus2/D A/D Asus2/D A/D Asus2/D

Why do I dream of you, why do I dream of you

Why...

Chords: (as I play them)

A/D xx0220

Asus2/D xx0200

Asus x02230

Dsus2 xx0230

Asus2 x02200

Link to comment
Share on other sites

I've noticed that the spacing is a little wacky so here is Bullhead City by Umphrey's McGee

Bullhead City

Umphrey's McGee

Tab by Eric Sievers (eric_j_sievers@yahoo.com)

These notes are just an initial guide, you should alternate

between strums and various arpeggiations of these chords as needed

E Asus2

E---------------------------------------------

B-------0-----------0-----------0-------------

G-----1---1-------1---1-------2---2-----------

D---2-------2---2-------2---2-------2---------

A-------------2-----------0-------------------

E-0-------------------------------------------

E

E-------------------------------------------------

B-------0-----------0-----------0-----------0-----

G-----1---1-------1---1-------1---1-------1---1---

D---2-------2---2-------2---2-------2---2-------2-

A-------------2-----------------------2-----------

E-0-----------------------0-----------------------

Asus2 B

E-------------------------------------------------

B-------0-----------0-----------0-----------0-----

G-----2---2-------2---2-------4-----4-----4-----4-

D---2-------2---2-------2---4-----4-----4-----4---

A-0-----------------------2-----------------------

E-------------0-----------------------2-----------

B

E-------------------------

B-------0-----------0-----

G-----4-----4-----4-----4-

D---4-----4-----4-----4---

A-2-----------------------

E-------------2-----------

That part is the intro and the verse, keep playing that

until the chorus, which is this part

A fortune was made but I lost it

F# Asus2

E-------------------------------------

B-------2-----------2-----------0-----

G-----3-----3-----3-----3-----2---2---

D---4-----4-----4-----4-----2-------2-

A-------------4-----------0-----------

E-2-----------------------------------

(lost it twiiii.. ice)

twice

E

E-------------------------------------------------

B-------0-----------0-----------0-----------0-----

G-----1---1-------1---1-------1---1-------1---1---

D---2-------2---2-------2---2-------2---2-------2-

A-------------2-----------------------2-----------

E-0-----------------------0-----------------------

Repeat that a couple times and you got a chorus.

Then add this little riff and go back to the beginning,

or end on this part if you are at the end

time were right I'd stay with you to night

G G/A G/B G/C

E-------------------------------------------------

B-------3-----------3-----------3-----------3-----

G-----0---0-------0---0-------0---0-------0---0---

D---0-------0---0-------0---0-------0---0-------0-

A-------------0-----------2-----------3-----------

E-3-----------------------------------------------

Dsus2

E-------0-----------0-----------0-----------0-----

B-----3---3-------3---3-------3---3-------3---3---

G---2-------2---2-------2---2-------2---2-------2-

D-0-----------0-----------0-----------0-----------

A-------------------------------------------------

E-------------------------------------------------

1

Link to comment
Share on other sites

  • 4 weeks later...

OK, one of my favorite covers ever. The Band v 2.0 doing Springsteen:

Artist: Band

Song: Atlantic City

Atlantic City 4/4 The Band Album: Jericho.

Capo 2 Transcribed by Ken Lee kandvlee@shaw.ca

Intro: Mandolin Solo

/ Em

Well, they / blew up the chicken man,

/ C - G

In / Philly last night, and

/ Em / C

They / blew up his house, / too.

Em

Down on the boardwalk,

/ C - G

They're / ready for a fight,

/ Em

Gonna / see what them,

/ C

Racket boys can / do.

Em /

Now there's / trouble bussin' in,

/ C - G

From / outta state, and

/ Em / C

The / D.A. can't get no re - / lief.

Em / / C - G

Gonna / be a rumble on the / promen - ade, and

/ Em

The / gamblin' commissioner's hangin' on,

/ D

By the / skin of his teeth.

Chorus:

Em

Everything dies, baby,

C - G

That's a / fact,

/ Em /

But / maybe everything that / dies,

/ C - G

Some / day comes back.

Em / G

Put your / makeup on,

/ C - G

Fix your / hair up pretty, and

Em / C - G

Meet me to - night in At - / lantic City.

/ Em

Well, I / got a job, and

/ C - G

I put my / money a - way,

/ Em

But I / got the kind of debt

/ C - G

That no honest / man can pay.

/ Em

So I / drew out what I had

/ C - G

From the / Central Trust, and

/ Em

I / bought us two tickets

/ D

On that / Coast City bus.

Chorus:

/ Em

Now our / luck may have died, and

/ C - G

Our / love might be cold,

/ Em / C

But with / you for - ever I'll / stay.

/ Em

We'll be / goin' out,

/ C - G

Where the / sands turn to gold,

/ Em

But put your / stockin's on,

/ D

'Cause it / might get cold.

Chorus:

/ Em

Now I've been a - / lookin' for a / job,

/ C - G

But it's / hard to find,

/ Em

There's / winners and there's losers, and

/ C - G

I am / South of the line.

/ Em

Well, I'm / tired of gettin' caught out

/ C - G

On the / losin' end,

/ Em

But I / talked to a man last night,

/ D

Gonna do a little / favor for him.

Chorus:

/ Em - G / C G

Oh, / meet me tonight in At - / lantic City,

/ Em - G / C G

Oh, / meet me to - night in At - / lantic City.

/ Em - G / C G

Oh, / meet me to - night in At - / lantic City.

actual chords are:(F#m=(Em), A=(G), D=©, E=(D), E7=(D7), Bm=(Am))

END

Link to comment
Share on other sites

Join the conversation

You can post now and register later. If you have an account, sign in now to post with your account.

Guest
Reply to this topic...

×   Pasted as rich text.   Paste as plain text instead

  Only 75 emoji are allowed.

×   Your link has been automatically embedded.   Display as a link instead

×   Your previous content has been restored.   Clear editor

×   You cannot paste images directly. Upload or insert images from URL.

 Share




×
×
  • Create New...